ISO-10303-21;
HEADER;
/* Generated by software containing ST-Developer
 * from STEP Tools, Inc. (www.steptools.com) 
 */

FILE_DESCRIPTION(
/* description */ (''),
/* implementation_level */ '2;1');

FILE_NAME(
/* name */ 
'D:\\Users\\dimercur\\Documents\\SVN\\projets-gei\\Dumber 2015\\Mecani
que\\Chargeur\\1593K PCB.stp',
/* time_stamp */ '2016-09-20T15:05:27+02:00',
/* author */ ('dimercur'),
/* organization */ (''),
/* preprocessor_version */ 'ST-DEVELOPER v16.1',
/* originating_system */ 'Autodesk Inventor 2016',
/* authorisation */ '');

FILE_SCHEMA (('AUTOMOTIVE_DESIGN { 1 0 10303 214 3 1 1 }'));
ENDSEC;

DATA;
#10=MECHANICAL_DESIGN_GEOMETRIC_PRESENTATION_REPRESENTATION('',(#13),#575);
#11=SHAPE_REPRESENTATION_RELATIONSHIP('SRR','None',#584,#12);
#12=ADVANCED_BREP_SHAPE_REPRESENTATION('',(#14),#574);
#13=STYLED_ITEM('',(#594),#14);
#14=MANIFOLD_SOLID_BREP('Solide1',#351);
#15=LINE('',#501,#47);
#16=LINE('',#503,#48);
#17=LINE('',#505,#49);
#18=LINE('',#506,#50);
#19=LINE('',#511,#51);
#20=LINE('',#515,#52);
#21=LINE('',#517,#53);
#22=LINE('',#518,#54);
#23=LINE('',#521,#55);
#24=LINE('',#523,#56);
#25=LINE('',#524,#57);
#26=LINE('',#527,#58);
#27=LINE('',#529,#59);
#28=LINE('',#530,#60);
#29=LINE('',#533,#61);
#30=LINE('',#535,#62);
#31=LINE('',#536,#63);
#32=LINE('',#539,#64);
#33=LINE('',#541,#65);
#34=LINE('',#542,#66);
#35=LINE('',#547,#67);
#36=LINE('',#551,#68);
#37=LINE('',#553,#69);
#38=LINE('',#554,#70);
#39=LINE('',#557,#71);
#40=LINE('',#559,#72);
#41=LINE('',#560,#73);
#42=LINE('',#563,#74);
#43=LINE('',#565,#75);
#44=LINE('',#566,#76);
#45=LINE('',#568,#77);
#46=LINE('',#569,#78);
#47=VECTOR('',#411,3.3056266003594);
#48=VECTOR('',#412,1.6);
#49=VECTOR('',#413,3.3056266003594);
#50=VECTOR('',#414,1.6);
#51=VECTOR('',#419,1.6);
#52=VECTOR('',#424,3.3056266003594);
#53=VECTOR('',#425,1.6);
#54=VECTOR('',#426,3.3056266003594);
#55=VECTOR('',#429,32.8458738842952);
#56=VECTOR('',#430,1.6);
#57=VECTOR('',#431,32.8458738842952);
#58=VECTOR('',#434,56.6112532007192);
#59=VECTOR('',#435,1.6);
#60=VECTOR('',#436,56.6112532007192);
#61=VECTOR('',#439,32.8458738842948);
#62=VECTOR('',#440,1.6);
#63=VECTOR('',#441,32.8458738842948);
#64=VECTOR('',#444,3.3056266003598);
#65=VECTOR('',#445,1.6);
#66=VECTOR('',#446,3.3056266003598);
#67=VECTOR('',#451,1.6);
#68=VECTOR('',#456,3.3056266003598);
#69=VECTOR('',#457,1.6);
#70=VECTOR('',#458,3.3056266003598);
#71=VECTOR('',#461,18.1839082268583);
#72=VECTOR('',#462,1.6);
#73=VECTOR('',#463,18.1839082268583);
#74=VECTOR('',#466,56.6112532007192);
#75=VECTOR('',#467,1.6);
#76=VECTOR('',#468,56.6112532007192);
#77=VECTOR('',#471,18.1839082268579);
#78=VECTOR('',#472,18.1839082268579);
#79=PLANE('',#365);
#80=PLANE('',#369);
#81=PLANE('',#370);
#82=PLANE('',#371);
#83=PLANE('',#372);
#84=PLANE('',#373);
#85=PLANE('',#377);
#86=PLANE('',#378);
#87=PLANE('',#379);
#88=PLANE('',#380);
#89=PLANE('',#381);
#90=PLANE('',#382);
#91=FACE_BOUND('',#122,.T.);
#92=FACE_BOUND('',#124,.T.);
#93=FACE_BOUND('',#126,.T.);
#94=FACE_BOUND('',#128,.T.);
#95=FACE_BOUND('',#142,.T.);
#96=FACE_BOUND('',#143,.T.);
#97=FACE_BOUND('',#144,.T.);
#98=FACE_BOUND('',#145,.T.);
#99=FACE_BOUND('',#147,.T.);
#100=FACE_BOUND('',#148,.T.);
#101=FACE_BOUND('',#149,.T.);
#102=FACE_BOUND('',#150,.T.);
#103=FACE_OUTER_BOUND('',#121,.T.);
#104=FACE_OUTER_BOUND('',#123,.T.);
#105=FACE_OUTER_BOUND('',#125,.T.);
#106=FACE_OUTER_BOUND('',#127,.T.);
#107=FACE_OUTER_BOUND('',#129,.T.);
#108=FACE_OUTER_BOUND('',#130,.T.);
#109=FACE_OUTER_BOUND('',#131,.T.);
#110=FACE_OUTER_BOUND('',#132,.T.);
#111=FACE_OUTER_BOUND('',#133,.T.);
#112=FACE_OUTER_BOUND('',#134,.T.);
#113=FACE_OUTER_BOUND('',#135,.T.);
#114=FACE_OUTER_BOUND('',#136,.T.);
#115=FACE_OUTER_BOUND('',#137,.T.);
#116=FACE_OUTER_BOUND('',#138,.T.);
#117=FACE_OUTER_BOUND('',#139,.T.);
#118=FACE_OUTER_BOUND('',#140,.T.);
#119=FACE_OUTER_BOUND('',#141,.T.);
#120=FACE_OUTER_BOUND('',#146,.T.);
#121=EDGE_LOOP('',(#239));
#122=EDGE_LOOP('',(#240));
#123=EDGE_LOOP('',(#241));
#124=EDGE_LOOP('',(#242));
#125=EDGE_LOOP('',(#243));
#126=EDGE_LOOP('',(#244));
#127=EDGE_LOOP('',(#245));
#128=EDGE_LOOP('',(#246));
#129=EDGE_LOOP('',(#247,#248,#249,#250));
#130=EDGE_LOOP('',(#251,#252,#253,#254));
#131=EDGE_LOOP('',(#255,#256,#257,#258));
#132=EDGE_LOOP('',(#259,#260,#261,#262));
#133=EDGE_LOOP('',(#263,#264,#265,#266));
#134=EDGE_LOOP('',(#267,#268,#269,#270));
#135=EDGE_LOOP('',(#271,#272,#273,#274));
#136=EDGE_LOOP('',(#275,#276,#277,#278));
#137=EDGE_LOOP('',(#279,#280,#281,#282));
#138=EDGE_LOOP('',(#283,#284,#285,#286));
#139=EDGE_LOOP('',(#287,#288,#289,#290));
#140=EDGE_LOOP('',(#291,#292,#293,#294));
#141=EDGE_LOOP('',(#295,#296,#297,#298,#299,#300,#301,#302,#303,#304,#305,
#306));
#142=EDGE_LOOP('',(#307));
#143=EDGE_LOOP('',(#308));
#144=EDGE_LOOP('',(#309));
#145=EDGE_LOOP('',(#310));
#146=EDGE_LOOP('',(#311,#312,#313,#314,#315,#316,#317,#318,#319,#320,#321,
#322));
#147=EDGE_LOOP('',(#323));
#148=EDGE_LOOP('',(#324));
#149=EDGE_LOOP('',(#325));
#150=EDGE_LOOP('',(#326));
#151=CIRCLE('',#354,1.6);
#152=CIRCLE('',#355,1.6);
#153=CIRCLE('',#357,1.6);
#154=CIRCLE('',#358,1.6);
#155=CIRCLE('',#360,1.6);
#156=CIRCLE('',#361,1.6);
#157=CIRCLE('',#363,1.6);
#158=CIRCLE('',#364,1.6);
#159=CIRCLE('',#367,3.31609177311824);
#160=CIRCLE('',#368,3.31609177311824);
#161=CIRCLE('',#375,3.31609177311824);
#162=CIRCLE('',#376,3.31609177311824);
#163=VERTEX_POINT('',#479);
#164=VERTEX_POINT('',#481);
#165=VERTEX_POINT('',#484);
#166=VERTEX_POINT('',#486);
#167=VERTEX_POINT('',#489);
#168=VERTEX_POINT('',#491);
#169=VERTEX_POINT('',#494);
#170=VERTEX_POINT('',#496);
#171=VERTEX_POINT('',#499);
#172=VERTEX_POINT('',#500);
#173=VERTEX_POINT('',#502);
#174=VERTEX_POINT('',#504);
#175=VERTEX_POINT('',#508);
#176=VERTEX_POINT('',#510);
#177=VERTEX_POINT('',#514);
#178=VERTEX_POINT('',#516);
#179=VERTEX_POINT('',#520);
#180=VERTEX_POINT('',#522);
#181=VERTEX_POINT('',#526);
#182=VERTEX_POINT('',#528);
#183=VERTEX_POINT('',#532);
#184=VERTEX_POINT('',#534);
#185=VERTEX_POINT('',#538);
#186=VERTEX_POINT('',#540);
#187=VERTEX_POINT('',#544);
#188=VERTEX_POINT('',#546);
#189=VERTEX_POINT('',#550);
#190=VERTEX_POINT('',#552);
#191=VERTEX_POINT('',#556);
#192=VERTEX_POINT('',#558);
#193=VERTEX_POINT('',#562);
#194=VERTEX_POINT('',#564);
#195=EDGE_CURVE('',#163,#163,#151,.T.);
#196=EDGE_CURVE('',#164,#164,#152,.T.);
#197=EDGE_CURVE('',#165,#165,#153,.T.);
#198=EDGE_CURVE('',#166,#166,#154,.T.);
#199=EDGE_CURVE('',#167,#167,#155,.T.);
#200=EDGE_CURVE('',#168,#168,#156,.T.);
#201=EDGE_CURVE('',#169,#169,#157,.T.);
#202=EDGE_CURVE('',#170,#170,#158,.T.);
#203=EDGE_CURVE('',#171,#172,#15,.T.);
#204=EDGE_CURVE('',#173,#172,#16,.T.);
#205=EDGE_CURVE('',#174,#173,#17,.T.);
#206=EDGE_CURVE('',#174,#171,#18,.T.);
#207=EDGE_CURVE('',#172,#175,#159,.T.);
#208=EDGE_CURVE('',#176,#175,#19,.T.);
#209=EDGE_CURVE('',#173,#176,#160,.T.);
#210=EDGE_CURVE('',#175,#177,#20,.T.);
#211=EDGE_CURVE('',#178,#177,#21,.T.);
#212=EDGE_CURVE('',#176,#178,#22,.T.);
#213=EDGE_CURVE('',#177,#179,#23,.T.);
#214=EDGE_CURVE('',#180,#179,#24,.T.);
#215=EDGE_CURVE('',#178,#180,#25,.T.);
#216=EDGE_CURVE('',#179,#181,#26,.T.);
#217=EDGE_CURVE('',#182,#181,#27,.T.);
#218=EDGE_CURVE('',#180,#182,#28,.T.);
#219=EDGE_CURVE('',#181,#183,#29,.T.);
#220=EDGE_CURVE('',#184,#183,#30,.T.);
#221=EDGE_CURVE('',#182,#184,#31,.T.);
#222=EDGE_CURVE('',#183,#185,#32,.T.);
#223=EDGE_CURVE('',#186,#185,#33,.T.);
#224=EDGE_CURVE('',#184,#186,#34,.T.);
#225=EDGE_CURVE('',#185,#187,#161,.T.);
#226=EDGE_CURVE('',#188,#187,#35,.T.);
#227=EDGE_CURVE('',#186,#188,#162,.T.);
#228=EDGE_CURVE('',#187,#189,#36,.T.);
#229=EDGE_CURVE('',#190,#189,#37,.T.);
#230=EDGE_CURVE('',#188,#190,#38,.T.);
#231=EDGE_CURVE('',#189,#191,#39,.T.);
#232=EDGE_CURVE('',#192,#191,#40,.T.);
#233=EDGE_CURVE('',#190,#192,#41,.T.);
#234=EDGE_CURVE('',#191,#193,#42,.T.);
#235=EDGE_CURVE('',#194,#193,#43,.T.);
#236=EDGE_CURVE('',#192,#194,#44,.T.);
#237=EDGE_CURVE('',#193,#171,#45,.T.);
#238=EDGE_CURVE('',#194,#174,#46,.T.);
#239=ORIENTED_EDGE('',*,*,#195,.F.);
#240=ORIENTED_EDGE('',*,*,#196,.F.);
#241=ORIENTED_EDGE('',*,*,#197,.F.);
#242=ORIENTED_EDGE('',*,*,#198,.F.);
#243=ORIENTED_EDGE('',*,*,#199,.F.);
#244=ORIENTED_EDGE('',*,*,#200,.F.);
#245=ORIENTED_EDGE('',*,*,#201,.F.);
#246=ORIENTED_EDGE('',*,*,#202,.F.);
#247=ORIENTED_EDGE('',*,*,#203,.T.);
#248=ORIENTED_EDGE('',*,*,#204,.F.);
#249=ORIENTED_EDGE('',*,*,#205,.F.);
#250=ORIENTED_EDGE('',*,*,#206,.T.);
#251=ORIENTED_EDGE('',*,*,#207,.T.);
#252=ORIENTED_EDGE('',*,*,#208,.F.);
#253=ORIENTED_EDGE('',*,*,#209,.F.);
#254=ORIENTED_EDGE('',*,*,#204,.T.);
#255=ORIENTED_EDGE('',*,*,#210,.T.);
#256=ORIENTED_EDGE('',*,*,#211,.F.);
#257=ORIENTED_EDGE('',*,*,#212,.F.);
#258=ORIENTED_EDGE('',*,*,#208,.T.);
#259=ORIENTED_EDGE('',*,*,#213,.T.);
#260=ORIENTED_EDGE('',*,*,#214,.F.);
#261=ORIENTED_EDGE('',*,*,#215,.F.);
#262=ORIENTED_EDGE('',*,*,#211,.T.);
#263=ORIENTED_EDGE('',*,*,#216,.T.);
#264=ORIENTED_EDGE('',*,*,#217,.F.);
#265=ORIENTED_EDGE('',*,*,#218,.F.);
#266=ORIENTED_EDGE('',*,*,#214,.T.);
#267=ORIENTED_EDGE('',*,*,#219,.T.);
#268=ORIENTED_EDGE('',*,*,#220,.F.);
#269=ORIENTED_EDGE('',*,*,#221,.F.);
#270=ORIENTED_EDGE('',*,*,#217,.T.);
#271=ORIENTED_EDGE('',*,*,#222,.T.);
#272=ORIENTED_EDGE('',*,*,#223,.F.);
#273=ORIENTED_EDGE('',*,*,#224,.F.);
#274=ORIENTED_EDGE('',*,*,#220,.T.);
#275=ORIENTED_EDGE('',*,*,#225,.T.);
#276=ORIENTED_EDGE('',*,*,#226,.F.);
#277=ORIENTED_EDGE('',*,*,#227,.F.);
#278=ORIENTED_EDGE('',*,*,#223,.T.);
#279=ORIENTED_EDGE('',*,*,#228,.T.);
#280=ORIENTED_EDGE('',*,*,#229,.F.);
#281=ORIENTED_EDGE('',*,*,#230,.F.);
#282=ORIENTED_EDGE('',*,*,#226,.T.);
#283=ORIENTED_EDGE('',*,*,#231,.T.);
#284=ORIENTED_EDGE('',*,*,#232,.F.);
#285=ORIENTED_EDGE('',*,*,#233,.F.);
#286=ORIENTED_EDGE('',*,*,#229,.T.);
#287=ORIENTED_EDGE('',*,*,#234,.T.);
#288=ORIENTED_EDGE('',*,*,#235,.F.);
#289=ORIENTED_EDGE('',*,*,#236,.F.);
#290=ORIENTED_EDGE('',*,*,#232,.T.);
#291=ORIENTED_EDGE('',*,*,#237,.T.);
#292=ORIENTED_EDGE('',*,*,#206,.F.);
#293=ORIENTED_EDGE('',*,*,#238,.F.);
#294=ORIENTED_EDGE('',*,*,#235,.T.);
#295=ORIENTED_EDGE('',*,*,#203,.F.);
#296=ORIENTED_EDGE('',*,*,#237,.F.);
#297=ORIENTED_EDGE('',*,*,#234,.F.);
#298=ORIENTED_EDGE('',*,*,#231,.F.);
#299=ORIENTED_EDGE('',*,*,#228,.F.);
#300=ORIENTED_EDGE('',*,*,#225,.F.);
#301=ORIENTED_EDGE('',*,*,#222,.F.);
#302=ORIENTED_EDGE('',*,*,#219,.F.);
#303=ORIENTED_EDGE('',*,*,#216,.F.);
#304=ORIENTED_EDGE('',*,*,#213,.F.);
#305=ORIENTED_EDGE('',*,*,#210,.F.);
#306=ORIENTED_EDGE('',*,*,#207,.F.);
#307=ORIENTED_EDGE('',*,*,#195,.T.);
#308=ORIENTED_EDGE('',*,*,#197,.T.);
#309=ORIENTED_EDGE('',*,*,#199,.T.);
#310=ORIENTED_EDGE('',*,*,#201,.T.);
#311=ORIENTED_EDGE('',*,*,#238,.T.);
#312=ORIENTED_EDGE('',*,*,#205,.T.);
#313=ORIENTED_EDGE('',*,*,#209,.T.);
#314=ORIENTED_EDGE('',*,*,#212,.T.);
#315=ORIENTED_EDGE('',*,*,#215,.T.);
#316=ORIENTED_EDGE('',*,*,#218,.T.);
#317=ORIENTED_EDGE('',*,*,#221,.T.);
#318=ORIENTED_EDGE('',*,*,#224,.T.);
#319=ORIENTED_EDGE('',*,*,#227,.T.);
#320=ORIENTED_EDGE('',*,*,#230,.T.);
#321=ORIENTED_EDGE('',*,*,#233,.T.);
#322=ORIENTED_EDGE('',*,*,#236,.T.);
#323=ORIENTED_EDGE('',*,*,#196,.T.);
#324=ORIENTED_EDGE('',*,*,#198,.T.);
#325=ORIENTED_EDGE('',*,*,#200,.T.);
#326=ORIENTED_EDGE('',*,*,#202,.T.);
#327=CYLINDRICAL_SURFACE('',#353,1.6);
#328=CYLINDRICAL_SURFACE('',#356,1.6);
#329=CYLINDRICAL_SURFACE('',#359,1.6);
#330=CYLINDRICAL_SURFACE('',#362,1.6);
#331=CYLINDRICAL_SURFACE('',#366,3.31609177311824);
#332=CYLINDRICAL_SURFACE('',#374,3.31609177311825);
#333=ADVANCED_FACE('',(#103,#91),#327,.F.);
#334=ADVANCED_FACE('',(#104,#92),#328,.F.);
#335=ADVANCED_FACE('',(#105,#93),#329,.F.);
#336=ADVANCED_FACE('',(#106,#94),#330,.F.);
#337=ADVANCED_FACE('',(#107),#79,.T.);
#338=ADVANCED_FACE('',(#108),#331,.F.);
#339=ADVANCED_FACE('',(#109),#80,.T.);
#340=ADVANCED_FACE('',(#110),#81,.T.);
#341=ADVANCED_FACE('',(#111),#82,.T.);
#342=ADVANCED_FACE('',(#112),#83,.T.);
#343=ADVANCED_FACE('',(#113),#84,.T.);
#344=ADVANCED_FACE('',(#114),#332,.F.);
#345=ADVANCED_FACE('',(#115),#85,.T.);
#346=ADVANCED_FACE('',(#116),#86,.T.);
#347=ADVANCED_FACE('',(#117),#87,.T.);
#348=ADVANCED_FACE('',(#118),#88,.T.);
#349=ADVANCED_FACE('',(#119,#95,#96,#97,#98),#89,.T.);
#350=ADVANCED_FACE('',(#120,#99,#100,#101,#102),#90,.T.);
#351=CLOSED_SHELL('',(#333,#334,#335,#336,#337,#338,#339,#340,#341,#342,
#343,#344,#345,#346,#347,#348,#349,#350));
#352=AXIS2_PLACEMENT_3D('placement',#477,#383,#384);
#353=AXIS2_PLACEMENT_3D('',#478,#385,#386);
#354=AXIS2_PLACEMENT_3D('',#480,#387,#388);
#355=AXIS2_PLACEMENT_3D('',#482,#389,#390);
#356=AXIS2_PLACEMENT_3D('',#483,#391,#392);
#357=AXIS2_PLACEMENT_3D('',#485,#393,#394);
#358=AXIS2_PLACEMENT_3D('',#487,#395,#396);
#359=AXIS2_PLACEMENT_3D('',#488,#397,#398);
#360=AXIS2_PLACEMENT_3D('',#490,#399,#400);
#361=AXIS2_PLACEMENT_3D('',#492,#401,#402);
#362=AXIS2_PLACEMENT_3D('',#493,#403,#404);
#363=AXIS2_PLACEMENT_3D('',#495,#405,#406);
#364=AXIS2_PLACEMENT_3D('',#497,#407,#408);
#365=AXIS2_PLACEMENT_3D('',#498,#409,#410);
#366=AXIS2_PLACEMENT_3D('',#507,#415,#416);
#367=AXIS2_PLACEMENT_3D('',#509,#417,#418);
#368=AXIS2_PLACEMENT_3D('',#512,#420,#421);
#369=AXIS2_PLACEMENT_3D('',#513,#422,#423);
#370=AXIS2_PLACEMENT_3D('',#519,#427,#428);
#371=AXIS2_PLACEMENT_3D('',#525,#432,#433);
#372=AXIS2_PLACEMENT_3D('',#531,#437,#438);
#373=AXIS2_PLACEMENT_3D('',#537,#442,#443);
#374=AXIS2_PLACEMENT_3D('',#543,#447,#448);
#375=AXIS2_PLACEMENT_3D('',#545,#449,#450);
#376=AXIS2_PLACEMENT_3D('',#548,#452,#453);
#377=AXIS2_PLACEMENT_3D('',#549,#454,#455);
#378=AXIS2_PLACEMENT_3D('',#555,#459,#460);
#379=AXIS2_PLACEMENT_3D('',#561,#464,#465);
#380=AXIS2_PLACEMENT_3D('',#567,#469,#470);
#381=AXIS2_PLACEMENT_3D('',#570,#473,#474);
#382=AXIS2_PLACEMENT_3D('',#571,#475,#476);
#383=DIRECTION('axis',(0.,0.,1.));
#384=DIRECTION('refdir',(1.,0.,0.));
#385=DIRECTION('center_axis',(0.,0.,1.));
#386=DIRECTION('ref_axis',(-1.,0.,0.));
#387=DIRECTION('center_axis',(0.,0.,1.));
#388=DIRECTION('ref_axis',(1.,0.,0.));
#389=DIRECTION('center_axis',(0.,0.,-1.));
#390=DIRECTION('ref_axis',(1.,0.,0.));
#391=DIRECTION('center_axis',(0.,0.,1.));
#392=DIRECTION('ref_axis',(-1.,-1.22464679914736E-16,0.));
#393=DIRECTION('center_axis',(0.,0.,1.));
#394=DIRECTION('ref_axis',(1.,0.,0.));
#395=DIRECTION('center_axis',(0.,0.,-1.));
#396=DIRECTION('ref_axis',(1.,0.,0.));
#397=DIRECTION('center_axis',(0.,0.,1.));
#398=DIRECTION('ref_axis',(-1.,-1.22464679914747E-16,0.));
#399=DIRECTION('center_axis',(0.,0.,1.));
#400=DIRECTION('ref_axis',(1.,0.,0.));
#401=DIRECTION('center_axis',(0.,0.,-1.));
#402=DIRECTION('ref_axis',(1.,0.,0.));
#403=DIRECTION('center_axis',(0.,0.,1.));
#404=DIRECTION('ref_axis',(-1.,0.,0.));
#405=DIRECTION('center_axis',(0.,0.,1.));
#406=DIRECTION('ref_axis',(1.,0.,0.));
#407=DIRECTION('center_axis',(0.,0.,-1.));
#408=DIRECTION('ref_axis',(1.,0.,0.));
#409=DIRECTION('center_axis',(1.67929285253279E-16,-1.,0.));
#410=DIRECTION('ref_axis',(0.,0.,-1.));
#411=DIRECTION('',(1.,0.,0.));
#412=DIRECTION('',(0.,0.,-1.));
#413=DIRECTION('',(1.,0.,0.));
#414=DIRECTION('',(0.,0.,-1.));
#415=DIRECTION('center_axis',(0.,0.,-1.));
#416=DIRECTION('ref_axis',(0.,1.,0.));
#417=DIRECTION('center_axis',(0.,0.,-1.));
#418=DIRECTION('ref_axis',(-6.69597285349659E-16,1.,0.));
#419=DIRECTION('',(0.,0.,-1.));
#420=DIRECTION('center_axis',(0.,0.,-1.));
#421=DIRECTION('ref_axis',(-6.69597285349659E-16,1.,0.));
#422=DIRECTION('center_axis',(-3.35858570506556E-16,1.,0.));
#423=DIRECTION('ref_axis',(0.,0.,1.));
#424=DIRECTION('',(-1.,0.,0.));
#425=DIRECTION('',(0.,0.,-1.));
#426=DIRECTION('',(-1.,0.,0.));
#427=DIRECTION('center_axis',(-1.,-2.70407912673864E-16,0.));
#428=DIRECTION('ref_axis',(0.,0.,1.));
#429=DIRECTION('',(0.,-1.,0.));
#430=DIRECTION('',(0.,0.,-1.));
#431=DIRECTION('',(0.,-1.,0.));
#432=DIRECTION('center_axis',(3.13781578567437E-16,-1.,0.));
#433=DIRECTION('ref_axis',(0.,0.,-1.));
#434=DIRECTION('',(1.,0.,0.));
#435=DIRECTION('',(0.,0.,-1.));
#436=DIRECTION('',(1.,0.,0.));
#437=DIRECTION('center_axis',(1.,0.,0.));
#438=DIRECTION('ref_axis',(0.,0.,-1.));
#439=DIRECTION('',(0.,1.,0.));
#440=DIRECTION('',(0.,0.,-1.));
#441=DIRECTION('',(0.,1.,0.));
#442=DIRECTION('center_axis',(-6.7171714101304E-16,1.,0.));
#443=DIRECTION('ref_axis',(0.,0.,1.));
#444=DIRECTION('',(-1.,0.,0.));
#445=DIRECTION('',(0.,0.,-1.));
#446=DIRECTION('',(-1.,0.,0.));
#447=DIRECTION('center_axis',(0.,0.,-1.));
#448=DIRECTION('ref_axis',(0.,-1.,0.));
#449=DIRECTION('center_axis',(0.,0.,-1.));
#450=DIRECTION('ref_axis',(0.,-1.,0.));
#451=DIRECTION('',(0.,0.,-1.));
#452=DIRECTION('center_axis',(0.,0.,-1.));
#453=DIRECTION('ref_axis',(0.,-1.,0.));
#454=DIRECTION('center_axis',(1.6792928525326E-16,-1.,0.));
#455=DIRECTION('ref_axis',(0.,0.,-1.));
#456=DIRECTION('',(1.,0.,0.));
#457=DIRECTION('',(0.,0.,-1.));
#458=DIRECTION('',(1.,0.,0.));
#459=DIRECTION('center_axis',(1.,0.,0.));
#460=DIRECTION('ref_axis',(0.,0.,-1.));
#461=DIRECTION('',(0.,1.,0.));
#462=DIRECTION('',(0.,0.,-1.));
#463=DIRECTION('',(0.,1.,0.));
#464=DIRECTION('center_axis',(-2.35336183925577E-16,1.,0.));
#465=DIRECTION('ref_axis',(0.,0.,1.));
#466=DIRECTION('',(-1.,0.,0.));
#467=DIRECTION('',(0.,0.,-1.));
#468=DIRECTION('',(-1.,0.,0.));
#469=DIRECTION('center_axis',(-1.,-2.44220991609569E-16,0.));
#470=DIRECTION('ref_axis',(0.,0.,1.));
#471=DIRECTION('',(0.,-1.,0.));
#472=DIRECTION('',(0.,-1.,0.));
#473=DIRECTION('center_axis',(0.,0.,-1.));
#474=DIRECTION('ref_axis',(-1.,0.,0.));
#475=DIRECTION('center_axis',(0.,0.,1.));
#476=DIRECTION('ref_axis',(1.,0.,0.));
#477=CARTESIAN_POINT('',(0.,0.,0.));
#478=CARTESIAN_POINT('Origin',(28.,-27.9999999999999,-0.800000000000001));
#479=CARTESIAN_POINT('',(26.4,-27.9999999999999,-1.6));
#480=CARTESIAN_POINT('Origin',(28.,-27.9999999999999,-1.6));
#481=CARTESIAN_POINT('',(29.6,-27.9999999999999,0.));
#482=CARTESIAN_POINT('Origin',(28.,-27.9999999999999,0.));
#483=CARTESIAN_POINT('Origin',(0.,-3.08148791101958E-32,-0.800000000000001));
#484=CARTESIAN_POINT('',(-1.6,-1.9593701661158E-16,-1.6));
#485=CARTESIAN_POINT('Origin',(0.,0.,-1.6));
#486=CARTESIAN_POINT('',(1.6,0.,0.));
#487=CARTESIAN_POINT('Origin',(0.,0.,0.));
#488=CARTESIAN_POINT('Origin',(28.,6.21724893790088E-14,-0.800000000000001));
#489=CARTESIAN_POINT('',(26.4,6.19765523623972E-14,-1.6));
#490=CARTESIAN_POINT('Origin',(28.,6.21724893790088E-14,-1.6));
#491=CARTESIAN_POINT('',(29.6,6.21724893790088E-14,0.));
#492=CARTESIAN_POINT('Origin',(28.,6.21724893790088E-14,0.));
#493=CARTESIAN_POINT('Origin',(9.15933995315754E-15,-28.,-0.800000000000001));
#494=CARTESIAN_POINT('',(-1.59999999999999,-28.,-1.6));
#495=CARTESIAN_POINT('Origin',(8.88178419700125E-15,-28.,-1.6));
#496=CARTESIAN_POINT('',(1.60000000000001,-28.,0.));
#497=CARTESIAN_POINT('Origin',(8.88178419700125E-15,-28.,0.));
#498=CARTESIAN_POINT('Origin',(-14.3056266003596,-3.35292539815827,0.));
#499=CARTESIAN_POINT('',(-14.3056266003596,-3.35292539815827,-1.6));
#500=CARTESIAN_POINT('',(-11.0000000000002,-3.35292539815827,-1.6));
#501=CARTESIAN_POINT('',(-14.3056266003596,-3.35292539815827,-1.6));
#502=CARTESIAN_POINT('',(-11.0000000000002,-3.35292539815827,0.));
#503=CARTESIAN_POINT('',(-11.0000000000002,-3.35292539815827,0.));
#504=CARTESIAN_POINT('',(-14.3056266003596,-3.35292539815827,0.));
#505=CARTESIAN_POINT('',(-14.3056266003596,-3.35292539815827,0.));
#506=CARTESIAN_POINT('',(-14.3056266003596,-3.35292539815827,0.));
#507=CARTESIAN_POINT('Origin',(-11.0000000000002,-6.66901717127651,-0.8));
#508=CARTESIAN_POINT('',(-11.0000000000002,-9.98510894439476,-1.6));
#509=CARTESIAN_POINT('Origin',(-11.0000000000002,-6.66901717127651,-1.6));
#510=CARTESIAN_POINT('',(-11.0000000000002,-9.98510894439476,0.));
#511=CARTESIAN_POINT('',(-11.0000000000002,-9.98510894439476,0.));
#512=CARTESIAN_POINT('Origin',(-11.0000000000002,-6.66901717127651,0.));
#513=CARTESIAN_POINT('Origin',(-11.0000000000002,-9.98510894439476,0.));
#514=CARTESIAN_POINT('',(-14.3056266003596,-9.98510894439476,-1.6));
#515=CARTESIAN_POINT('',(-11.0000000000002,-9.98510894439476,-1.6));
#516=CARTESIAN_POINT('',(-14.3056266003596,-9.98510894439476,0.));
#517=CARTESIAN_POINT('',(-14.3056266003596,-9.98510894439476,0.));
#518=CARTESIAN_POINT('',(-11.0000000000002,-9.98510894439476,0.));
#519=CARTESIAN_POINT('Origin',(-14.3056266003596,-9.98510894439476,0.));
#520=CARTESIAN_POINT('',(-14.3056266003596,-42.83098282869,-1.6));
#521=CARTESIAN_POINT('',(-14.3056266003596,-9.98510894439476,-1.6));
#522=CARTESIAN_POINT('',(-14.3056266003596,-42.83098282869,0.));
#523=CARTESIAN_POINT('',(-14.3056266003596,-42.83098282869,0.));
#524=CARTESIAN_POINT('',(-14.3056266003596,-9.98510894439476,0.));
#525=CARTESIAN_POINT('Origin',(-14.3056266003596,-42.83098282869,0.));
#526=CARTESIAN_POINT('',(42.3056266003596,-42.83098282869,-1.6));
#527=CARTESIAN_POINT('',(-14.3056266003596,-42.83098282869,-1.6));
#528=CARTESIAN_POINT('',(42.3056266003596,-42.83098282869,0.));
#529=CARTESIAN_POINT('',(42.3056266003596,-42.83098282869,0.));
#530=CARTESIAN_POINT('',(-14.3056266003596,-42.83098282869,0.));
#531=CARTESIAN_POINT('Origin',(42.3056266003596,-42.83098282869,0.));
#532=CARTESIAN_POINT('',(42.3056266003596,-9.9851089443952,-1.6));
#533=CARTESIAN_POINT('',(42.3056266003596,-42.83098282869,-1.6));
#534=CARTESIAN_POINT('',(42.3056266003596,-9.9851089443952,0.));
#535=CARTESIAN_POINT('',(42.3056266003596,-9.9851089443952,0.));
#536=CARTESIAN_POINT('',(42.3056266003596,-42.83098282869,0.));
#537=CARTESIAN_POINT('Origin',(42.3056266003596,-9.9851089443952,0.));
#538=CARTESIAN_POINT('',(38.9999999999998,-9.9851089443952,-1.6));
#539=CARTESIAN_POINT('',(42.3056266003596,-9.9851089443952,-1.6));
#540=CARTESIAN_POINT('',(38.9999999999998,-9.9851089443952,0.));
#541=CARTESIAN_POINT('',(38.9999999999998,-9.9851089443952,0.));
#542=CARTESIAN_POINT('',(42.3056266003596,-9.9851089443952,0.));
#543=CARTESIAN_POINT('Origin',(38.9999999999998,-6.66901717127695,-0.8));
#544=CARTESIAN_POINT('',(38.9999999999998,-3.35292539815871,-1.6));
#545=CARTESIAN_POINT('Origin',(38.9999999999998,-6.66901717127695,-1.6));
#546=CARTESIAN_POINT('',(38.9999999999998,-3.35292539815871,0.));
#547=CARTESIAN_POINT('',(38.9999999999998,-3.35292539815871,0.));
#548=CARTESIAN_POINT('Origin',(38.9999999999998,-6.66901717127695,0.));
#549=CARTESIAN_POINT('Origin',(38.9999999999998,-3.35292539815871,0.));
#550=CARTESIAN_POINT('',(42.3056266003596,-3.35292539815871,-1.6));
#551=CARTESIAN_POINT('',(38.9999999999998,-3.35292539815871,-1.6));
#552=CARTESIAN_POINT('',(42.3056266003596,-3.35292539815871,0.));
#553=CARTESIAN_POINT('',(42.3056266003596,-3.35292539815871,0.));
#554=CARTESIAN_POINT('',(38.9999999999998,-3.35292539815871,0.));
#555=CARTESIAN_POINT('Origin',(42.3056266003596,-3.35292539815871,0.));
#556=CARTESIAN_POINT('',(42.3056266003596,14.8309828286996,-1.6));
#557=CARTESIAN_POINT('',(42.3056266003596,-3.35292539815871,-1.6));
#558=CARTESIAN_POINT('',(42.3056266003596,14.8309828286996,0.));
#559=CARTESIAN_POINT('',(42.3056266003596,14.8309828286996,0.));
#560=CARTESIAN_POINT('',(42.3056266003596,-3.35292539815871,0.));
#561=CARTESIAN_POINT('Origin',(42.3056266003596,14.8309828286996,0.));
#562=CARTESIAN_POINT('',(-14.3056266003596,14.8309828286996,-1.6));
#563=CARTESIAN_POINT('',(42.3056266003596,14.8309828286996,-1.6));
#564=CARTESIAN_POINT('',(-14.3056266003596,14.8309828286996,0.));
#565=CARTESIAN_POINT('',(-14.3056266003596,14.8309828286996,0.));
#566=CARTESIAN_POINT('',(42.3056266003596,14.8309828286996,0.));
#567=CARTESIAN_POINT('Origin',(-14.3056266003596,14.8309828286996,0.));
#568=CARTESIAN_POINT('',(-14.3056266003596,14.8309828286996,-1.6));
#569=CARTESIAN_POINT('',(-14.3056266003596,14.8309828286996,0.));
#570=CARTESIAN_POINT('Origin',(14.0000000000001,-13.3886317238381,-1.6));
#571=CARTESIAN_POINT('Origin',(14.0000000000001,-13.3886317238381,0.));
#572=UNCERTAINTY_MEASURE_WITH_UNIT(LENGTH_MEASURE(0.01),#576,
'DISTANCE_ACCURACY_VALUE',
'Maximum model space distance between geometric entities at asserted c
onnectivities');
#573=UNCERTAINTY_MEASURE_WITH_UNIT(LENGTH_MEASURE(1.E-6),#576,
'DISTANCE_ACCURACY_VALUE',
'Maximum model space distance between geometric entities at asserted c
onnectivities');
#574=(
GEOMETRIC_REPRESENTATION_CONTEXT(3)
GLOBAL_UNCERTAINTY_ASSIGNED_CONTEXT((#572))
GLOBAL_UNIT_ASSIGNED_CONTEXT((#576,#579,#577))
REPRESENTATION_CONTEXT('','3D')
);
#575=(
GEOMETRIC_REPRESENTATION_CONTEXT(3)
GLOBAL_UNCERTAINTY_ASSIGNED_CONTEXT((#573))
GLOBAL_UNIT_ASSIGNED_CONTEXT((#576,#579,#577))
REPRESENTATION_CONTEXT('','3D')
);
#576=(
LENGTH_UNIT()
NAMED_UNIT(*)
SI_UNIT(.MILLI.,.METRE.)
);
#577=(
NAMED_UNIT(*)
SI_UNIT($,.STERADIAN.)
SOLID_ANGLE_UNIT()
);
#578=DIMENSIONAL_EXPONENTS(0.,0.,0.,0.,0.,0.,0.);
#579=(
CONVERSION_BASED_UNIT('degree',#581)
NAMED_UNIT(#578)
PLANE_ANGLE_UNIT()
);
#580=(
NAMED_UNIT(*)
PLANE_ANGLE_UNIT()
SI_UNIT($,.RADIAN.)
);
#581=PLANE_ANGLE_MEASURE_WITH_UNIT(PLANE_ANGLE_MEASURE(0.01745329252),#580);
#582=SHAPE_DEFINITION_REPRESENTATION(#583,#584);
#583=PRODUCT_DEFINITION_SHAPE('',$,#586);
#584=SHAPE_REPRESENTATION('',(#352),#574);
#585=PRODUCT_DEFINITION_CONTEXT('part definition',#590,'design');
#586=PRODUCT_DEFINITION('1593K PCB','1593K PCB',#587,#585);
#587=PRODUCT_DEFINITION_FORMATION('',$,#592);
#588=PRODUCT_RELATED_PRODUCT_CATEGORY('1593K PCB','1593K PCB',(#592));
#589=APPLICATION_PROTOCOL_DEFINITION('international standard',
'automotive_design',2009,#590);
#590=APPLICATION_CONTEXT(
'Core Data for Automotive Mechanical Design Process');
#591=PRODUCT_CONTEXT('part definition',#590,'mechanical');
#592=PRODUCT('1593K PCB','1593K PCB',$,(#591));
#593=PRESENTATION_STYLE_ASSIGNMENT((#595));
#594=PRESENTATION_STYLE_ASSIGNMENT((#596));
#595=SURFACE_STYLE_USAGE(.BOTH.,#597);
#596=SURFACE_STYLE_USAGE(.BOTH.,#598);
#597=SURFACE_SIDE_STYLE('',(#599));
#598=SURFACE_SIDE_STYLE('',(#600));
#599=SURFACE_STYLE_FILL_AREA(#601);
#600=SURFACE_STYLE_FILL_AREA(#602);
#601=FILL_AREA_STYLE('',(#603));
#602=FILL_AREA_STYLE('',(#604));
#603=FILL_AREA_STYLE_COLOUR('',#605);
#604=FILL_AREA_STYLE_COLOUR('',#606);
#605=COLOUR_RGB('',0.749019607843137,0.749019607843137,0.749019607843137);
#606=COLOUR_RGB('',0.0666666666666667,0.756862745098039,0.329411764705882);
ENDSEC;
END-ISO-10303-21;
