ISO-10303-21;
HEADER;
/* Generated by software containing ST-Developer
 * from STEP Tools, Inc. (www.steptools.com) 
 */

FILE_DESCRIPTION(
/* description */ (''),
/* implementation_level */ '2;1');

FILE_NAME(
/* name */ 
'D:\\Utilisateurs\\sd\\Mes documents\\SVN\\projets-gei\\Dumber 2015\\M
ecanique\\Export\\pied.stp',
/* time_stamp */ '2015-03-19T15:18:26+01:00',
/* author */ ('sd'),
/* organization */ (''),
/* preprocessor_version */ 'ST-DEVELOPER v15.2',
/* originating_system */ 'Autodesk Inventor 2014',
/* authorisation */ '');

FILE_SCHEMA (('AUTOMOTIVE_DESIGN { 1 0 10303 214 3 1 1 }'));
ENDSEC;

DATA;
#10=MECHANICAL_DESIGN_GEOMETRIC_PRESENTATION_REPRESENTATION('',(#13),#209);
#11=SHAPE_REPRESENTATION_RELATIONSHIP('SRR','None',#218,#12);
#12=ADVANCED_BREP_SHAPE_REPRESENTATION($,(#116),#208);
#13=STYLED_ITEM('',(#227),#116);
#14=TOROIDAL_SURFACE('',#122,5.5,0.5);
#15=TOROIDAL_SURFACE('',#129,7.,0.5);
#16=TOROIDAL_SURFACE('',#133,5.5,2.);
#17=PLANE('',#121);
#18=PLANE('',#125);
#19=PLANE('',#135);
#20=PLANE('',#136);
#21=FACE_BOUND('',#40,.T.);
#22=FACE_BOUND('',#43,.T.);
#23=FACE_BOUND('',#45,.T.);
#24=FACE_BOUND('',#47,.T.);
#25=FACE_BOUND('',#49,.T.);
#26=FACE_BOUND('',#51,.T.);
#27=FACE_BOUND('',#53,.T.);
#28=FACE_BOUND('',#55,.T.);
#29=FACE_BOUND('',#56,.T.);
#30=FACE_OUTER_BOUND('',#39,.T.);
#31=FACE_OUTER_BOUND('',#41,.T.);
#32=FACE_OUTER_BOUND('',#42,.T.);
#33=FACE_OUTER_BOUND('',#44,.T.);
#34=FACE_OUTER_BOUND('',#46,.T.);
#35=FACE_OUTER_BOUND('',#48,.T.);
#36=FACE_OUTER_BOUND('',#50,.T.);
#37=FACE_OUTER_BOUND('',#52,.T.);
#38=FACE_OUTER_BOUND('',#54,.T.);
#39=EDGE_LOOP('',(#84));
#40=EDGE_LOOP('',(#85));
#41=EDGE_LOOP('',(#86));
#42=EDGE_LOOP('',(#87));
#43=EDGE_LOOP('',(#88));
#44=EDGE_LOOP('',(#89));
#45=EDGE_LOOP('',(#90));
#46=EDGE_LOOP('',(#91));
#47=EDGE_LOOP('',(#92));
#48=EDGE_LOOP('',(#93));
#49=EDGE_LOOP('',(#94));
#50=EDGE_LOOP('',(#95));
#51=EDGE_LOOP('',(#96));
#52=EDGE_LOOP('',(#97));
#53=EDGE_LOOP('',(#98));
#54=EDGE_LOOP('',(#99));
#55=EDGE_LOOP('',(#100));
#56=EDGE_LOOP('',(#101));
#57=CIRCLE('',#119,1.25);
#58=CIRCLE('',#120,1.25);
#59=CIRCLE('',#123,5.5);
#60=CIRCLE('',#124,5.);
#61=CIRCLE('',#126,7.);
#62=CIRCLE('',#128,5.);
#63=CIRCLE('',#130,7.5);
#64=CIRCLE('',#132,7.5);
#65=CIRCLE('',#134,5.5);
#66=VERTEX_POINT('',#179);
#67=VERTEX_POINT('',#181);
#68=VERTEX_POINT('',#185);
#69=VERTEX_POINT('',#187);
#70=VERTEX_POINT('',#190);
#71=VERTEX_POINT('',#193);
#72=VERTEX_POINT('',#196);
#73=VERTEX_POINT('',#199);
#74=VERTEX_POINT('',#202);
#75=EDGE_CURVE('',#66,#66,#57,.T.);
#76=EDGE_CURVE('',#67,#67,#58,.T.);
#77=EDGE_CURVE('',#68,#68,#59,.T.);
#78=EDGE_CURVE('',#69,#69,#60,.T.);
#79=EDGE_CURVE('',#70,#70,#61,.T.);
#80=EDGE_CURVE('',#71,#71,#62,.T.);
#81=EDGE_CURVE('',#72,#72,#63,.T.);
#82=EDGE_CURVE('',#73,#73,#64,.T.);
#83=EDGE_CURVE('',#74,#74,#65,.T.);
#84=ORIENTED_EDGE('',*,*,#75,.F.);
#85=ORIENTED_EDGE('',*,*,#76,.F.);
#86=ORIENTED_EDGE('',*,*,#76,.T.);
#87=ORIENTED_EDGE('',*,*,#77,.T.);
#88=ORIENTED_EDGE('',*,*,#78,.T.);
#89=ORIENTED_EDGE('',*,*,#79,.F.);
#90=ORIENTED_EDGE('',*,*,#77,.F.);
#91=ORIENTED_EDGE('',*,*,#80,.F.);
#92=ORIENTED_EDGE('',*,*,#78,.F.);
#93=ORIENTED_EDGE('',*,*,#81,.T.);
#94=ORIENTED_EDGE('',*,*,#79,.T.);
#95=ORIENTED_EDGE('',*,*,#82,.F.);
#96=ORIENTED_EDGE('',*,*,#81,.F.);
#97=ORIENTED_EDGE('',*,*,#83,.T.);
#98=ORIENTED_EDGE('',*,*,#82,.T.);
#99=ORIENTED_EDGE('',*,*,#83,.F.);
#100=ORIENTED_EDGE('',*,*,#75,.T.);
#101=ORIENTED_EDGE('',*,*,#80,.T.);
#102=CYLINDRICAL_SURFACE('',#118,1.25);
#103=CYLINDRICAL_SURFACE('',#127,5.);
#104=CYLINDRICAL_SURFACE('',#131,7.5);
#105=ADVANCED_FACE('',(#30,#21),#102,.F.);
#106=ADVANCED_FACE('',(#31),#17,.T.);
#107=ADVANCED_FACE('',(#32,#22),#14,.F.);
#108=ADVANCED_FACE('',(#33,#23),#18,.T.);
#109=ADVANCED_FACE('',(#34,#24),#103,.T.);
#110=ADVANCED_FACE('',(#35,#25),#15,.T.);
#111=ADVANCED_FACE('',(#36,#26),#104,.T.);
#112=ADVANCED_FACE('',(#37,#27),#16,.T.);
#113=ADVANCED_FACE('',(#38),#19,.T.);
#114=ADVANCED_FACE('',(#28,#29),#20,.T.);
#115=CLOSED_SHELL('',(#105,#106,#107,#108,#109,#110,#111,#112,#113,#114));
#116=MANIFOLD_SOLID_BREP('Solide1',#115);
#117=AXIS2_PLACEMENT_3D('placement',#177,#137,#138);
#118=AXIS2_PLACEMENT_3D('',#178,#139,#140);
#119=AXIS2_PLACEMENT_3D('',#180,#141,#142);
#120=AXIS2_PLACEMENT_3D('',#182,#143,#144);
#121=AXIS2_PLACEMENT_3D('',#183,#145,#146);
#122=AXIS2_PLACEMENT_3D('',#184,#147,#148);
#123=AXIS2_PLACEMENT_3D('',#186,#149,#150);
#124=AXIS2_PLACEMENT_3D('',#188,#151,#152);
#125=AXIS2_PLACEMENT_3D('',#189,#153,#154);
#126=AXIS2_PLACEMENT_3D('',#191,#155,#156);
#127=AXIS2_PLACEMENT_3D('',#192,#157,#158);
#128=AXIS2_PLACEMENT_3D('',#194,#159,#160);
#129=AXIS2_PLACEMENT_3D('',#195,#161,#162);
#130=AXIS2_PLACEMENT_3D('',#197,#163,#164);
#131=AXIS2_PLACEMENT_3D('',#198,#165,#166);
#132=AXIS2_PLACEMENT_3D('',#200,#167,#168);
#133=AXIS2_PLACEMENT_3D('',#201,#169,#170);
#134=AXIS2_PLACEMENT_3D('',#203,#171,#172);
#135=AXIS2_PLACEMENT_3D('',#204,#173,#174);
#136=AXIS2_PLACEMENT_3D('',#205,#175,#176);
#137=DIRECTION('axis',(0.,0.,1.));
#138=DIRECTION('refdir',(1.,0.,0.));
#139=DIRECTION('center_axis',(0.,0.,1.));
#140=DIRECTION('ref_axis',(1.,0.,0.));
#141=DIRECTION('center_axis',(0.,0.,-1.));
#142=DIRECTION('ref_axis',(1.,0.,0.));
#143=DIRECTION('center_axis',(0.,0.,1.));
#144=DIRECTION('ref_axis',(1.,0.,0.));
#145=DIRECTION('center_axis',(0.,0.,1.));
#146=DIRECTION('ref_axis',(1.,0.,0.));
#147=DIRECTION('center_axis',(0.,0.,1.));
#148=DIRECTION('ref_axis',(1.,0.,0.));
#149=DIRECTION('center_axis',(0.,0.,1.));
#150=DIRECTION('ref_axis',(-1.,1.22464679914735E-016,0.));
#151=DIRECTION('center_axis',(0.,0.,-1.));
#152=DIRECTION('ref_axis',(-1.,1.22464679914735E-016,0.));
#153=DIRECTION('center_axis',(0.,0.,1.));
#154=DIRECTION('ref_axis',(1.,0.,0.));
#155=DIRECTION('center_axis',(0.,0.,-1.));
#156=DIRECTION('ref_axis',(-1.,1.22464679914735E-016,0.));
#157=DIRECTION('center_axis',(0.,0.,1.));
#158=DIRECTION('ref_axis',(1.,0.,0.));
#159=DIRECTION('center_axis',(0.,0.,1.));
#160=DIRECTION('ref_axis',(1.,0.,0.));
#161=DIRECTION('center_axis',(0.,0.,1.));
#162=DIRECTION('ref_axis',(1.,0.,0.));
#163=DIRECTION('center_axis',(0.,0.,1.));
#164=DIRECTION('ref_axis',(-1.,1.22464679914735E-016,0.));
#165=DIRECTION('center_axis',(0.,0.,1.));
#166=DIRECTION('ref_axis',(1.,0.,0.));
#167=DIRECTION('center_axis',(0.,0.,-1.));
#168=DIRECTION('ref_axis',(-1.,1.22464679914735E-016,0.));
#169=DIRECTION('center_axis',(0.,0.,1.));
#170=DIRECTION('ref_axis',(1.,0.,0.));
#171=DIRECTION('center_axis',(0.,0.,1.));
#172=DIRECTION('ref_axis',(-1.,1.22464679914735E-016,0.));
#173=DIRECTION('center_axis',(0.,0.,-1.));
#174=DIRECTION('ref_axis',(-1.,0.,0.));
#175=DIRECTION('center_axis',(0.,0.,1.));
#176=DIRECTION('ref_axis',(1.,0.,0.));
#177=CARTESIAN_POINT('',(0.,0.,0.));
#178=CARTESIAN_POINT('Origin',(0.,0.,-1.22906342946367));
#179=CARTESIAN_POINT('',(1.25,0.,2.27093657053633));
#180=CARTESIAN_POINT('Origin',(0.,0.,2.27093657053633));
#181=CARTESIAN_POINT('',(1.25,0.,-4.72906342946367));
#182=CARTESIAN_POINT('Origin',(0.,0.,-4.72906342946367));
#183=CARTESIAN_POINT('Origin',(0.,0.,-4.72906342946367));
#184=CARTESIAN_POINT('Origin',(0.,0.,-2.72906342946367));
#185=CARTESIAN_POINT('',(5.5,0.,-3.22906342946367));
#186=CARTESIAN_POINT('Origin',(0.,0.,-3.22906342946367));
#187=CARTESIAN_POINT('',(5.,-1.22464679914735E-015,-2.72906342946367));
#188=CARTESIAN_POINT('Origin',(0.,0.,-2.72906342946367));
#189=CARTESIAN_POINT('Origin',(5.,0.,-3.22906342946367));
#190=CARTESIAN_POINT('',(7.,-1.71450551880629E-015,-3.22906342946367));
#191=CARTESIAN_POINT('Origin',(0.,0.,-3.22906342946367));
#192=CARTESIAN_POINT('Origin',(0.,0.,-0.47906342946367));
#193=CARTESIAN_POINT('',(5.,0.,2.27093657053633));
#194=CARTESIAN_POINT('Origin',(0.,0.,2.27093657053633));
#195=CARTESIAN_POINT('Origin',(0.,0.,-3.72906342946367));
#196=CARTESIAN_POINT('',(7.5,0.,-3.72906342946367));
#197=CARTESIAN_POINT('Origin',(0.,0.,-3.72906342946367));
#198=CARTESIAN_POINT('Origin',(0.,0.,-4.97906342946367));
#199=CARTESIAN_POINT('',(7.5,-1.83697019872103E-015,-4.72906342946367));
#200=CARTESIAN_POINT('Origin',(0.,0.,-4.72906342946367));
#201=CARTESIAN_POINT('Origin',(0.,0.,-4.72906342946367));
#202=CARTESIAN_POINT('',(5.5,0.,-6.72906342946367));
#203=CARTESIAN_POINT('Origin',(0.,0.,-6.72906342946367));
#204=CARTESIAN_POINT('Origin',(7.5,0.,-6.72906342946367));
#205=CARTESIAN_POINT('Origin',(0.,0.,2.27093657053633));
#206=UNCERTAINTY_MEASURE_WITH_UNIT(LENGTH_MEASURE(0.01),#210,
'DISTANCE_ACCURACY_VALUE',
'Maximum model space distance between geometric entities at asserted c
onnectivities');
#207=UNCERTAINTY_MEASURE_WITH_UNIT(LENGTH_MEASURE(1.E-006),#210,
'DISTANCE_ACCURACY_VALUE',
'Maximum model space distance between geometric entities at asserted c
onnectivities');
#208=(
GEOMETRIC_REPRESENTATION_CONTEXT(3)
GLOBAL_UNCERTAINTY_ASSIGNED_CONTEXT((#206))
GLOBAL_UNIT_ASSIGNED_CONTEXT((#210,#213,#211))
REPRESENTATION_CONTEXT('','3D')
);
#209=(
GEOMETRIC_REPRESENTATION_CONTEXT(3)
GLOBAL_UNCERTAINTY_ASSIGNED_CONTEXT((#207))
GLOBAL_UNIT_ASSIGNED_CONTEXT((#210,#213,#211))
REPRESENTATION_CONTEXT('','3D')
);
#210=(
LENGTH_UNIT()
NAMED_UNIT(*)
SI_UNIT(.MILLI.,.METRE.)
);
#211=(
NAMED_UNIT(*)
SI_UNIT($,.STERADIAN.)
SOLID_ANGLE_UNIT()
);
#212=DIMENSIONAL_EXPONENTS(0.,0.,0.,0.,0.,0.,0.);
#213=(
CONVERSION_BASED_UNIT('degree',#215)
NAMED_UNIT(#212)
PLANE_ANGLE_UNIT()
);
#214=(
NAMED_UNIT(*)
PLANE_ANGLE_UNIT()
SI_UNIT($,.RADIAN.)
);
#215=PLANE_ANGLE_MEASURE_WITH_UNIT(PLANE_ANGLE_MEASURE(0.01745329252),#214);
#216=SHAPE_DEFINITION_REPRESENTATION(#217,#218);
#217=PRODUCT_DEFINITION_SHAPE('',$,#220);
#218=SHAPE_REPRESENTATION('',(#117),#208);
#219=PRODUCT_DEFINITION_CONTEXT('part definition',#224,'design');
#220=PRODUCT_DEFINITION('pied','pied',#221,#219);
#221=PRODUCT_DEFINITION_FORMATION('',$,#226);
#222=PRODUCT_RELATED_PRODUCT_CATEGORY('pied','pied',(#226));
#223=APPLICATION_PROTOCOL_DEFINITION('international standard',
'automotive_design',2009,#224);
#224=APPLICATION_CONTEXT(
'Core Data for Automotive Mechanical Design Process');
#225=PRODUCT_CONTEXT('part definition',#224,'mechanical');
#226=PRODUCT('pied','pied',$,(#225));
#227=PRESENTATION_STYLE_ASSIGNMENT((#228));
#228=SURFACE_STYLE_USAGE(.BOTH.,#229);
#229=SURFACE_SIDE_STYLE($,(#230));
#230=SURFACE_STYLE_FILL_AREA(#231);
#231=FILL_AREA_STYLE($,(#232));
#232=FILL_AREA_STYLE_COLOUR($,#233);
#233=COLOUR_RGB('',0.92156862745098,0.92156862745098,0.92156862745098);
ENDSEC;
END-ISO-10303-21;
